HomeSong-LessonsRockstar-In-YouQuestionsChord-ref Contact-Us     Join-us
  Basic Strings

Ambarsariya guitar chords, strumming for beginners

by :
Hello everyone!! Thank you very much for reading my content Today we'll be learning Ambarsariya guitar chords lesson easy version for beginners. And to sprinkle a little magic we'll use Capo on the 2nd fret.
   Gm           Fm7       cm7
e----3---    e----0---   e----x---
b----3---    b----1---   b----0---
g----3---    g----2---   g----0---
d----5---    d----3---   d----2---
a----5---    a----x---   a----3---
e----3---    e----x---   e----x---

  A7         Am7         Gm7
e--------   e--------   e----3---
b----2---   b----1---   b----3---
g----0---   g----0---   g----3---
d----2---   d----2---   d----3---
a----0---   a----0---   a----5---
e--------   e--------   e----3---
Strumming pattern we can use is D DU - D DU DU Intro chords are :
(Dm
)
(C
)
(Gm
)
(Am
)
(Dm
)
(C
)
(Gm
)
(Am
)
--
(A7
)
(Dm
)
(C
)
Gali Mein Maare Phere
(Gm
)
(Am
)
Paas Aane Ko Mere
(Dm
)
(C
)
Gali Mein Maare Phere
(Gm
)
(Am
)
Paas Aane Ko Mere
(FM7
)
Kabhi Parakhta Nain Mere
(CM7
)
To Kabhi Parakhta Tor
(FM7
)
Kabhi Parakhta Nain Mere
(CM7
)
(A7
)
To Kabhi Parakhta Tor
(Dm
)
(C
)
Ambersariya Mundya Ve
(Gm
)
(A7
)
Kachchiyaan Kaliyaan Na Tod
(Dm
)
(C
)
Teri Maa Ne Bole Hain
(Gm
)
(A7
)
Mujhe Teekhe Se Bol
(Dm
)
(F
)
(Am7
)
(A7
)
Ambarsariya
(Gm7
)
Main Kaliyon Ke Jaisi
(Cm7
)
Meri Alhad Umar Niyaadi
(Gm7
)
Chhoti Si Yeh Jaan Meri
(Cm7
)
Aur Joban Behta Paani
(Fm7
)
(A7
)
Rest of the song is been carried out with the same chords I hope you all got this right. If you face problems just comment down i'll try to help. Good Day!!
Introducing Tees for rockers!

  Recently Posted Song Lessons

  Recommended Song Lessons

  Recently Shared Covers

Advertisement

  Get Upadtes from G+

Basicstrings.com © 2013 Home ArchiveQuestionsChord-refAbout-UsContact-UsPrivacy Policy            Basic Strings  |   Basic Strings