HomeSong-LessonsRockstar-In-YouQuestionsChord-ref Contact-Us     Join-us
  Basic Strings

Tum hi ho aashiqui 2 guitar tabs,single string lead

by :
Hello everyone.. I'm posting the Tum hi ho aashiqui 2 guitar guitar tabs and notes. Now i understand that there may be some beginners reading this, some who doesn't understand the tabs here's a detailed link that will guide you to play this song. Tum hi ho guitar tabs explanation for beginners

e---1-----------------------
b-1---4-4-2-1-------2-1-1-1-
g-------------3-1-3---------
d---------------------------

e---------------------------
b---------------------------
g--3-3-1--3-3-1--0----------
d------------------1-3-1h3--

e
b------1-----------1-----
g--1h3---1-3---1h3---1-3
d

e------------------
b------------------
g--0-3-1-----0-----
d--------1h3---1-3-


     
e------------------------------
b----1----1----------1----1----
g--3----3---3-1----3----3---3-1

b-------------------
g--1-3--1-3--1-0-1--
d------------------3



e..1.1.......1...1.3.3........
b.......4.4............4.4..1.
g
tere liye... hi jiya main..



e.............1....1.3.3........
b..1.1.1..1...............4.4..1.
g
tujhko jo yun Dediya hai..



e...................................
b..2.2.1.2..2..4..2.1.......2.1..
g......................1.1......
d
teri wafa ne mujhko sambhala



e................................
b..2.2.1.2..2..4..2.......2.1..
g....................1.1........
d
Saare gamon ko dil se Nikaala..


e.......................................
b..........................2.2.1.1....1
g..0..1.1..3.3..1.3.....3..........3....
d
tere saath mera hai naseeb juda


e.....1.1......................................
b..1........1.1................................
g................3.3.....3.1.....1h3.1....1.0..
tujhe paake adhu        rana     raha..   hmm-mm

Introducing Tees for rockers!

  Recently Posted Song Lessons

  Recommended Song Lessons

  Recently Shared Covers

Advertisement

  Get Upadtes from G+

Basicstrings.com © 2013 Home ArchiveQuestionsChord-refAbout-UsContact-UsPrivacy Policy            Basic Strings  |   Basic Strings