HomeSong-LessonsRockstar-In-YouQuestionsChord-ref Contact-Us     Join-us
  Basic Strings

Bas main aur tu guitar chords lesson Aakash vani strummng

by :
HELLO FRIENDS WELCOME AGAIN HERE IS THE GUITAR LESSON FOR THE SONG- BAS MAIN AUR TU FROM THE MOVIE- AAKASH VANI STRUMMING PATTERN OF THE SONG IS-- DU DU where D muted and U unmuted. and the chords used in this song is given below
(D
)
(A
)
(G
)
(D
)
diya dhakka raat ko aur ho gayi subah
(D
)
(A
)
(G
)
(D
)
nakhreli aus ko bhi hai liya panah
(A
)
(Bm
)
chhuti jo baat thi kar li hai fir shuru rastey bhi haans rahe jo hai chale
(D
)
(G
)
bas main aur tu...
e------------------------------------
b--------3-----------3--------------
g----------------------------------
d--0h2-------0h2----------2/4---4\2
a-----------------------------------
e------------------------------------

e------------------------------------
b--------3-----------3-----------3/5-
g-----------------------------------
d--0h2-------0h2----------0h2-------
a-----------------------------------
e------------------------------------

e--------------------------------------------
b--5-5-3--5/7--5-3-------3--5/7--5-3-------3-
g--------------------4-----------------4-----
d--------------------------------------------
a--------------------------------------------
E--------------------------------------------

e-------------------------------------------
b-------------------------------------------
g--2--2/4-----------------------------------
d------------2-----2--2/4--0------------0---
a-------------------------------0-0h2-------
e-------------------------------------------
(D
)
(Bm
)
soch naa jo kal hua
(D
)
(A
)
soch naa kya hoga kal
(D
)
(Bm
)
behne de befikar
(D
)
(A
)
beparwah yeh saare pal chai mey biscuit dooba barish se boondein churaa auro ki na soch tu aaja chale thank you again for visiting basicstrings please rate and comment bye :D
Introducing Tees for rockers!

  Recently Posted Song Lessons

  Recommended Song Lessons

  Recently Shared Covers

Advertisement

  Get Upadtes from G+

Basicstrings.com © 2013 Home ArchiveQuestionsChord-refAbout-UsContact-UsPrivacy Policy            Basic Strings  |   Basic Strings